0
SECTION
2
HEADER
9
$INSUNITS
70
4
9
$ACADVER
1
AC1014
9
$HANDSEED
5
FFFF
0
ENDSEC
0
SECTION
2
TABLES
0
TABLE
2
VPORT
5
8
100
AcDbSymbolTable
0
ENDTAB
0
TABLE
2
LTYPE
5
5
100
AcDbSymbolTable
0
LTYPE
5
14
100
AcDbSymbolTableRecord
100
AcDbLinetypeTableRecord
2
BYBLOCK
70
0
0
LTYPE
5
15
100
AcDbSymbolTableRecord
100
AcDbLinetypeTableRecord
2
BYLAYER
70
0
0
ENDTAB
0
TABLE
2
LAYER
5
2
100
AcDbSymbolTable
70
2
0
LAYER
5
50
100
AcDbSymbolTableRecord
100
AcDbLayerTableRecord
2
0
70
0
6
CONTINUOUS
0
ENDTAB
0
TABLE
2
STYLE
5
3
100
AcDbSymbolTable
70
1
0
STYLE
5
11
100
AcDbSymbolTableRecord
100
AcDbTextStyleTableRecord
2
STANDARD
70
0
0
ENDTAB
0
TABLE
2
VIEW
5
6
100
AcDbSymbolTable
70
0
0
ENDTAB
0
TABLE
2
UCS
5
7
100
AcDbSymbolTable
70
0
0
ENDTAB
0
TABLE
2
APPID
5
9
100
AcDbSymbolTable
70
2
0
APPID
5
12
100
AcDbSymbolTableRecord
100
AcDbRegAppTableRecord
2
ACAD
70
0
0
ENDTAB
0
TABLE
2
DIMSTYLE
5
A
100
AcDbSymbolTable
70
1
0
ENDTAB
0
TABLE
2
BLOCK_RECORD
5
1
100
AcDbSymbolTable
70
1
0
BLOCK_RECORD
5
1F
100
AcDbSymbolTableRecord
100
AcDbBlockTableRecord
2
*MODEL_SPACE
0
BLOCK_RECORD
5
1B
100
AcDbSymbolTableRecord
100
AcDbBlockTableRecord
2
*PAPER_SPACE
0
ENDTAB
0
ENDSEC
0
SECTION
2
BLOCKS
0
BLOCK
5
20
100
AcDbEntity
100
AcDbBlockBegin
2
*MODEL_SPACE
0
ENDBLK
5
21
100
AcDbEntity
100
AcDbBlockEnd
0
BLOCK
5
1C
100
AcDbEntity
100
AcDbBlockBegin
2
*PAPER_SPACE
0
ENDBLK
5
1D
100
AcDbEntity
100
AcDbBlockEnd
0
ENDSEC
0
SECTION
2
ENTITIES
0
LINE
5
100
100
AcDbEntity
8
0
100
AcDbLine
10
68
20
230
30
0
11
74
21
230
31
0
0
LINE
5
101
100
AcDbEntity
8
0
100
AcDbLine
10
92
20
230
30
0
11
98
21
230
31
0
0
LINE
5
102
100
AcDbEntity
8
0
100
AcDbLine
10
104
20
230
30
0
11
110
21
230
31
0
0
LINE
5
103
100
AcDbEntity
8
0
100
AcDbLine
10
80
20
230
30
0
11
86.000000000000014
21
230
31
0
0
LINE
5
104
100
AcDbEntity
8
0
100
AcDbLine
10
56
20
230
30
0
11
62
21
230
31
0
0
LINE
5
105
100
AcDbEntity
8
0
100
AcDbLine
10
104
20
226.5
30
0
11
104
21
230
31
0
0
LINE
5
106
100
AcDbEntity
8
0
100
AcDbLine
10
98
20
226.5
30
0
11
104
21
226.5
31
0
0
LINE
5
107
100
AcDbEntity
8
0
100
AcDbLine
10
98
20
230
30
0
11
98
21
226.5
31
0
0
LINE
5
108
100
AcDbEntity
8
0
100
AcDbLine
10
92
20
226.5
30
0
11
92
21
230
31
0
0
LINE
5
109
100
AcDbEntity
8
0
100
AcDbLine
10
86.000000000000014
20
226.5
30
0
11
92
21
226.5
31
0
0
LINE
5
110
100
AcDbEntity
8
0
100
AcDbLine
10
86.000000000000014
20
230
30
0
11
86.000000000000014
21
226.5
31
0
0
LINE
5
111
100
AcDbEntity
8
0
100
AcDbLine
10
80
20
226.5
30
0
11
80
21
230
31
0
0
LINE
5
112
100
AcDbEntity
8
0
100
AcDbLine
10
74
20
226.5
30
0
11
80
21
226.5
31
0
0
LINE
5
113
100
AcDbEntity
8
0
100
AcDbLine
10
74
20
230
30
0
11
74
21
226.5
31
0
0
LINE
5
114
100
AcDbEntity
8
0
100
AcDbLine
10
68
20
226.5
30
0
11
68
21
230
31
0
0
LINE
5
115
100
AcDbEntity
8
0
100
AcDbLine
10
62
20
226.5
30
0
11
68
21
226.5
31
0
0
LINE
5
116
100
AcDbEntity
8
0
100
AcDbLine
10
62
20
230
30
0
11
62
21
226.5
31
0
0
LINE
5
117
100
AcDbEntity
8
0
100
AcDbLine
10
56
20
226.5
30
0
11
56
21
230
31
0
0
LINE
5
118
100
AcDbEntity
8
0
100
AcDbLine
10
50
20
226.5
30
0
11
56
21
226.5
31
0
0
LINE
5
119
100
AcDbEntity
8
0
100
AcDbLine
10
50
20
230
30
0
11
50
21
226.5
31
0
0
LINE
5
120
100
AcDbEntity
8
0
100
AcDbLine
10
110
20
220
30
0
11
43.588187880223529
21
220
31
0
0
LINE
5
121
100
AcDbEntity
8
0
100
AcDbLine
10
110
20
230
30
0
11
110
21
220
31
0
0
LINE
5
122
100
AcDbEntity
8
0
100
AcDbLine
10
40
20
230
30
0
11
50
21
230
31
0
0
SPLINE
5
123
100
AcDbEntity
8
0
100
AcDbSpline
70
12
71
2
41
1
41
0.99813498833606085
41
1
72
6
73
3
74
0
42
0.000000001
43
0.0000000001
44
0.0000000001
40
0
40
0
40
0
40
3.8004588587542933
40
3.8004588587542933
40
3.8004588587542933
10
40.363536320790558
20
134
30
0
10
40.582914113714459
20
155.57792325271831
30
0
10
40.943715392688951
20
172
30
0
0
LINE
5
124
100
AcDbEntity
8
0
100
AcDbLine
10
47.02858469182955
20
182
30
0
11
53.02858469182955
21
182
31
0
0
LINE
5
125
100
AcDbEntity
8
0
100
AcDbLine
10
41.02858469182955
20
182
30
0
11
41.189790827902755
21
182
31
0
0
LINE
5
126
100
AcDbEntity
8
0
100
AcDbLine
10
59.02858469182955
20
182
30
0
11
65.02858469182955
21
182
31
0
0
LINE
5
127
100
AcDbEntity
8
0
100
AcDbLine
10
71.02858469182955
20
182
30
0
11
77.02858469182955
21
182
31
0
0
LINE
5
128
100
AcDbEntity
8
0
100
AcDbLine
10
83.028584691829536
20
182
30
0
11
89.028584691829565
21
182
31
0
0
LINE
5
129
100
AcDbEntity
8
0
100
AcDbLine
10
95.02858469182955
20
182
30
0
11
101.02858469182955
21
182
31
0
0
LINE
5
130
100
AcDbEntity
8
0
100
AcDbLine
10
95.02858469182955
20
182
30
0
11
101.02858469182955
21
182
31
0
0
LINE
5
131
100
AcDbEntity
8
0
100
AcDbLine
10
53.02858469182955
20
178.49999999999997
30
0
11
59.02858469182955
21
178.49999999999997
31
0
0
LINE
5
132
100
AcDbEntity
8
0
100
AcDbLine
10
65.02858469182955
20
182
30
0
11
65.02858469182955
21
178.49999999999997
31
0
0
LINE
5
133
100
AcDbEntity
8
0
100
AcDbLine
10
65.02858469182955
20
178.49999999999997
30
0
11
71.02858469182955
21
178.49999999999997
31
0
0
LINE
5
134
100
AcDbEntity
8
0
100
AcDbLine
10
83.028584691829536
20
178.49999999999997
30
0
11
83.028584691829536
21
182
31
0
0
LINE
5
135
100
AcDbEntity
8
0
100
AcDbLine
10
53.02858469182955
20
182
30
0
11
53.02858469182955
21
178.49999999999997
31
0
0
LINE
5
136
100
AcDbEntity
8
0
100
AcDbLine
10
59.02858469182955
20
182
30
0
11
65.02858469182955
21
182
31
0
0
LINE
5
137
100
AcDbEntity
8
0
100
AcDbLine
10
71.02858469182955
20
182
30
0
11
77.02858469182955
21
182
31
0
0
LINE
5
138
100
AcDbEntity
8
0
100
AcDbLine
10
89.028584691829565
20
178.49999999999997
30
0
11
95.02858469182955
21
178.49999999999997
31
0
0
LINE
5
139
100
AcDbEntity
8
0
100
AcDbLine
10
83.028584691829536
20
182
30
0
11
89.028584691829565
21
182
31
0
0
LINE
5
140
100
AcDbEntity
8
0
100
AcDbLine
10
59.02858469182955
20
178.49999999999997
30
0
11
59.02858469182955
21
182
31
0
0
LINE
5
141
100
AcDbEntity
8
0
100
AcDbLine
10
41.02858469182955
20
178.49999999999997
30
0
11
47.02858469182955
21
178.49999999999997
31
0
0
LINE
5
142
100
AcDbEntity
8
0
100
AcDbLine
10
71.02858469182955
20
178.49999999999997
30
0
11
71.02858469182955
21
182
31
0
0
LINE
5
143
100
AcDbEntity
8
0
100
AcDbLine
10
47.02858469182955
20
182
30
0
11
53.02858469182955
21
182
31
0
0
LINE
5
144
100
AcDbEntity
8
0
100
AcDbLine
10
89.028584691829565
20
182
30
0
11
89.028584691829565
21
178.49999999999997
31
0
0
LINE
5
145
100
AcDbEntity
8
0
100
AcDbLine
10
47.02858469182955
20
178.49999999999997
30
0
11
47.02858469182955
21
182
31
0
0
LINE
5
146
100
AcDbEntity
8
0
100
AcDbLine
10
77.02858469182955
20
182
30
0
11
77.02858469182955
21
178.49999999999997
31
0
0
LINE
5
147
100
AcDbEntity
8
0
100
AcDbLine
10
77.02858469182955
20
178.49999999999997
30
0
11
83.028584691829536
21
178.49999999999997
31
0
0
LINE
5
148
100
AcDbEntity
8
0
100
AcDbLine
10
41.02858469182955
20
182
30
0
11
41.02858469182955
21
178.49999999999997
31
0
0
LINE
5
149
100
AcDbEntity
8
0
100
AcDbLine
10
95.02858469182955
20
178.49999999999997
30
0
11
95.02858469182955
21
182
31
0
0
LINE
5
150
100
AcDbEntity
8
0
100
AcDbLine
10
101.02858469182955
20
172
30
0
11
40.805966684058902
21
172
31
0
0
LINE
5
151
100
AcDbEntity
8
0
100
AcDbLine
10
101.02858469182955
20
182
30
0
11
101.02858469182955
21
172
31
0
0
SPLINE
5
152
100
AcDbEntity
8
0
100
AcDbSpline
70
12
71
2
41
1
41
0.99110581291917155
41
1
72
6
73
3
74
0
42
0.000000001
43
0.0000000001
44
0.0000000001
40
0
40
0
40
0
40
3.8095030116222404
40
3.8095030116222404
40
3.8095030116222404
10
41.189790827902755
20
182
30
0
10
42.079456031680706
20
214.29055068866998
30
0
10
43.588187880223529
20
220
30
0
0
LINE
5
153
100
AcDbEntity
8
0
100
AcDbLine
10
100.31649670247914
20
134
30
0
11
100.31649670247914
21
123.99999999999999
31
0
0
LINE
5
154
100
AcDbEntity
8
0
100
AcDbLine
10
100.31649670247914
20
123.99999999999999
30
0
11
40.242093857339434
21
123.99999999999999
31
0
0
LINE
5
155
100
AcDbEntity
8
0
100
AcDbLine
10
94.316496702479142
20
130.49999999999997
30
0
11
94.316496702479142
21
134
31
0
0
LINE
5
156
100
AcDbEntity
8
0
100
AcDbLine
10
76.316496702479142
20
130.49999999999997
30
0
11
82.316496702479157
21
130.49999999999997
31
0
0
LINE
5
157
100
AcDbEntity
8
0
100
AcDbLine
10
76.316496702479142
20
134
30
0
11
76.316496702479142
21
130.49999999999997
31
0
0
LINE
5
158
100
AcDbEntity
8
0
100
AcDbLine
10
46.316496702479135
20
130.49999999999997
30
0
11
46.316496702479135
21
134
31
0
0
LINE
5
159
100
AcDbEntity
8
0
100
AcDbLine
10
88.316496702479142
20
134
30
0
11
88.316496702479142
21
130.49999999999997
31
0
0
LINE
5
160
100
AcDbEntity
8
0
100
AcDbLine
10
46.316496702479135
20
134
30
0
11
52.316496702479142
21
134
31
0
0
LINE
5
161
100
AcDbEntity
8
0
100
AcDbLine
10
70.316496702479142
20
130.49999999999997
30
0
11
70.316496702479142
21
134
31
0
0
LINE
5
162
100
AcDbEntity
8
0
100
AcDbLine
10
58.316496702479135
20
130.49999999999997
30
0
11
58.316496702479135
21
134
31
0
0
LINE
5
163
100
AcDbEntity
8
0
100
AcDbLine
10
82.316496702479157
20
134
30
0
11
88.316496702479142
21
134
31
0
0
LINE
5
164
100
AcDbEntity
8
0
100
AcDbLine
10
88.316496702479142
20
130.49999999999997
30
0
11
94.316496702479142
21
130.49999999999997
31
0
0
LINE
5
165
100
AcDbEntity
8
0
100
AcDbLine
10
70.316496702479142
20
134
30
0
11
76.316496702479142
21
134
31
0
0
LINE
5
166
100
AcDbEntity
8
0
100
AcDbLine
10
58.316496702479135
20
134
30
0
11
64.316496702479142
21
134
31
0
0
LINE
5
167
100
AcDbEntity
8
0
100
AcDbLine
10
52.316496702479142
20
134
30
0
11
52.316496702479142
21
130.49999999999997
31
0
0
LINE
5
168
100
AcDbEntity
8
0
100
AcDbLine
10
82.316496702479157
20
130.49999999999997
30
0
11
82.316496702479157
21
134
31
0
0
LINE
5
169
100
AcDbEntity
8
0
100
AcDbLine
10
64.316496702479142
20
130.49999999999997
30
0
11
70.316496702479142
21
130.49999999999997
31
0
0
LINE
5
170
100
AcDbEntity
8
0
100
AcDbLine
10
64.316496702479142
20
134
30
0
11
64.316496702479142
21
130.49999999999997
31
0
0
LINE
5
171
100
AcDbEntity
8
0
100
AcDbLine
10
52.316496702479142
20
130.49999999999997
30
0
11
58.316496702479135
21
130.49999999999997
31
0
0
LINE
5
172
100
AcDbEntity
8
0
100
AcDbLine
10
94.316496702479142
20
134
30
0
11
100.31649670247914
21
134
31
0
0
LINE
5
173
100
AcDbEntity
8
0
100
AcDbLine
10
70.316496702479142
20
134
30
0
11
76.316496702479142
21
134
31
0
0
LINE
5
174
100
AcDbEntity
8
0
100
AcDbLine
10
82.316496702479157
20
134
30
0
11
88.316496702479142
21
134
31
0
0
LINE
5
175
100
AcDbEntity
8
0
100
AcDbLine
10
94.316496702479142
20
134
30
0
11
100.31649670247914
21
134
31
0
0
LINE
5
176
100
AcDbEntity
8
0
100
AcDbLine
10
58.06944617248972
20
85.999999999999972
30
0
11
64.06944617248972
21
85.999999999999972
31
0
0
LINE
5
177
100
AcDbEntity
8
0
100
AcDbLine
10
46.069446172489705
20
85.999999999999972
30
0
11
52.06944617248972
21
85.999999999999972
31
0
0
LINE
5
178
100
AcDbEntity
8
0
100
AcDbLine
10
70.06944617248972
20
85.999999999999972
30
0
11
76.06944617248972
21
85.999999999999972
31
0
0
LINE
5
179
100
AcDbEntity
8
0
100
AcDbLine
10
82.06944617248972
20
85.999999999999972
30
0
11
88.069446172489734
21
85.999999999999972
31
0
0
LINE
5
180
100
AcDbEntity
8
0
100
AcDbLine
10
94.069446172489705
20
85.999999999999972
30
0
11
100.06944617248973
21
85.999999999999972
31
0
0
LINE
5
181
100
AcDbEntity
8
0
100
AcDbLine
10
94.069446172489705
20
85.999999999999972
30
0
11
100.06944617248973
21
85.999999999999972
31
0
0
LINE
5
182
100
AcDbEntity
8
0
100
AcDbLine
10
52.06944617248972
20
82.499999999999972
30
0
11
58.06944617248972
21
82.499999999999972
31
0
0
LINE
5
183
100
AcDbEntity
8
0
100
AcDbLine
10
64.06944617248972
20
85.999999999999972
30
0
11
64.06944617248972
21
82.499999999999972
31
0
0
LINE
5
184
100
AcDbEntity
8
0
100
AcDbLine
10
64.06944617248972
20
82.499999999999972
30
0
11
70.06944617248972
21
82.499999999999972
31
0
0
LINE
5
185
100
AcDbEntity
8
0
100
AcDbLine
10
82.06944617248972
20
82.499999999999972
30
0
11
82.06944617248972
21
85.999999999999972
31
0
0
LINE
5
186
100
AcDbEntity
8
0
100
AcDbLine
10
52.06944617248972
20
85.999999999999972
30
0
11
52.06944617248972
21
82.499999999999972
31
0
0
LINE
5
187
100
AcDbEntity
8
0
100
AcDbLine
10
58.06944617248972
20
85.999999999999972
30
0
11
64.06944617248972
21
85.999999999999972
31
0
0
LINE
5
188
100
AcDbEntity
8
0
100
AcDbLine
10
70.06944617248972
20
85.999999999999972
30
0
11
76.06944617248972
21
85.999999999999972
31
0
0
LINE
5
189
100
AcDbEntity
8
0
100
AcDbLine
10
88.069446172489734
20
82.499999999999972
30
0
11
94.069446172489705
21
82.499999999999972
31
0
0
LINE
5
190
100
AcDbEntity
8
0
100
AcDbLine
10
82.06944617248972
20
85.999999999999972
30
0
11
88.069446172489734
21
85.999999999999972
31
0
0
LINE
5
191
100
AcDbEntity
8
0
100
AcDbLine
10
58.06944617248972
20
82.499999999999972
30
0
11
58.06944617248972
21
85.999999999999972
31
0
0
LINE
5
192
100
AcDbEntity
8
0
100
AcDbLine
10
70.06944617248972
20
82.499999999999972
30
0
11
70.06944617248972
21
85.999999999999972
31
0
0
LINE
5
193
100
AcDbEntity
8
0
100
AcDbLine
10
46.069446172489705
20
85.999999999999972
30
0
11
52.06944617248972
21
85.999999999999972
31
0
0
LINE
5
194
100
AcDbEntity
8
0
100
AcDbLine
10
88.069446172489734
20
85.999999999999972
30
0
11
88.069446172489734
21
82.499999999999972
31
0
0
LINE
5
195
100
AcDbEntity
8
0
100
AcDbLine
10
46.069446172489705
20
82.499999999999972
30
0
11
46.069446172489705
21
85.999999999999972
31
0
0
LINE
5
196
100
AcDbEntity
8
0
100
AcDbLine
10
76.06944617248972
20
85.999999999999972
30
0
11
76.06944617248972
21
82.499999999999972
31
0
0
LINE
5
197
100
AcDbEntity
8
0
100
AcDbLine
10
76.06944617248972
20
82.499999999999972
30
0
11
82.06944617248972
21
82.499999999999972
31
0
0
LINE
5
198
100
AcDbEntity
8
0
100
AcDbLine
10
94.069446172489705
20
82.499999999999972
30
0
11
94.069446172489705
21
85.999999999999972
31
0
0
LINE
5
199
100
AcDbEntity
8
0
100
AcDbLine
10
100.06944617248973
20
75.999999999999972
30
0
11
40.044637927299966
21
75.999999999999972
31
0
0
LINE
5
200
100
AcDbEntity
8
0
100
AcDbLine
10
100.06944617248973
20
85.999999999999972
30
0
11
100.06944617248973
21
75.999999999999972
31
0
0
LINE
5
201
100
AcDbEntity
8
0
100
AcDbLine
10
94
20
30
30
0
11
100
21
30
31
0
0
LINE
5
202
100
AcDbEntity
8
0
100
AcDbLine
10
82
20
30
30
0
11
88
21
30
31
0
0
LINE
5
203
100
AcDbEntity
8
0
100
AcDbLine
10
70
20
30
30
0
11
76
21
30
31
0
0
LINE
5
204
100
AcDbEntity
8
0
100
AcDbLine
10
58
20
30
30
0
11
64
21
30
31
0
0
LINE
5
205
100
AcDbEntity
8
0
100
AcDbLine
10
46
20
30
30
0
11
52
21
30
31
0
0
LINE
5
206
100
AcDbEntity
8
0
100
AcDbLine
10
94
20
30
30
0
11
100
21
30
31
0
0
LINE
5
207
100
AcDbEntity
8
0
100
AcDbLine
10
52
20
26.499999999999986
30
0
11
58
21
26.499999999999986
31
0
0
LINE
5
208
100
AcDbEntity
8
0
100
AcDbLine
10
64
20
30
30
0
11
64
21
26.499999999999986
31
0
0
LINE
5
209
100
AcDbEntity
8
0
100
AcDbLine
10
64
20
26.499999999999986
30
0
11
70
21
26.499999999999986
31
0
0
LINE
5
210
100
AcDbEntity
8
0
100
AcDbLine
10
82
20
26.499999999999986
30
0
11
82
21
30
31
0
0
LINE
5
211
100
AcDbEntity
8
0
100
AcDbLine
10
52
20
30
30
0
11
52
21
26.499999999999986
31
0
0
LINE
5
212
100
AcDbEntity
8
0
100
AcDbLine
10
58
20
30
30
0
11
64
21
30
31
0
0
LINE
5
213
100
AcDbEntity
8
0
100
AcDbLine
10
70
20
30
30
0
11
76
21
30
31
0
0
LINE
5
214
100
AcDbEntity
8
0
100
AcDbLine
10
88
20
26.499999999999986
30
0
11
94
21
26.499999999999986
31
0
0
LINE
5
215
100
AcDbEntity
8
0
100
AcDbLine
10
82
20
30
30
0
11
88
21
30
31
0
0
LINE
5
216
100
AcDbEntity
8
0
100
AcDbLine
10
58
20
26.499999999999986
30
0
11
58
21
30
31
0
0
LINE
5
217
100
AcDbEntity
8
0
100
AcDbLine
10
70
20
26.499999999999986
30
0
11
70
21
30
31
0
0
LINE
5
218
100
AcDbEntity
8
0
100
AcDbLine
10
46
20
30
30
0
11
52
21
30
31
0
0
LINE
5
219
100
AcDbEntity
8
0
100
AcDbLine
10
88
20
30
30
0
11
88
21
26.499999999999986
31
0
0
LINE
5
220
100
AcDbEntity
8
0
100
AcDbLine
10
46
20
26.499999999999986
30
0
11
46
21
30
31
0
0
LINE
5
221
100
AcDbEntity
8
0
100
AcDbLine
10
76
20
30
30
0
11
76
21
26.499999999999986
31
0
0
LINE
5
222
100
AcDbEntity
8
0
100
AcDbLine
10
76
20
26.499999999999986
30
0
11
82
21
26.499999999999986
31
0
0
LINE
5
223
100
AcDbEntity
8
0
100
AcDbLine
10
94
20
26.499999999999986
30
0
11
94
21
30
31
0
0
LINE
5
224
100
AcDbEntity
8
0
100
AcDbLine
10
100
20
20
30
0
11
0
21
20
31
0
0
LINE
5
225
100
AcDbEntity
8
0
100
AcDbLine
10
100
20
30
30
0
11
100
21
20
31
0
0
LINE
5
226
100
AcDbEntity
8
0
100
AcDbLine
10
0
20
20
30
0
11
0
21
30
31
0
0
LINE
5
227
100
AcDbEntity
8
0
100
AcDbLine
10
0
20
30
30
0
11
30
21
30
31
0
0
LINE
5
228
100
AcDbEntity
8
0
100
AcDbLine
10
40.316496702479142
20
134
30
0
11
40.316496702479142
21
130.49999999999997
31
0
0
LINE
5
229
100
AcDbEntity
8
0
100
AcDbLine
10
40.316496702479142
20
130.49999999999997
30
0
11
46.316496702479135
21
130.49999999999997
31
0
0
LINE
5
230
100
AcDbEntity
8
0
100
AcDbLine
10
40.069446172489727
20
85.999999999999972
30
0
11
40.069446172489727
21
82.499999999999972
31
0
0
LINE
5
231
100
AcDbEntity
8
0
100
AcDbLine
10
40.069446172489727
20
82.499999999999972
30
0
11
46.069446172489705
21
82.499999999999972
31
0
0
LINE
5
232
100
AcDbEntity
8
0
100
AcDbLine
10
40
20
30
30
0
11
40
21
26.499999999999986
31
0
0
LINE
5
233
100
AcDbEntity
8
0
100
AcDbLine
10
40
20
26.499999999999986
30
0
11
46
21
26.499999999999986
31
0
0
LINE
5
234
100
AcDbEntity
8
0
100
AcDbLine
10
40.316496702479142
20
134
30
0
11
40.363536320790558
21
134
31
0
0
SPLINE
5
235
100
AcDbEntity
8
0
100
AcDbSpline
70
12
71
2
41
1
41
0.99888233308809926
41
1
72
6
73
3
74
0
42
0.000000001
43
0.0000000001
44
0.0000000001
40
0
40
0
40
0
40
3.8000573027392619
40
3.8000573027392619
40
3.8000573027392619
10
40.069446172489727
20
85.999999999999972
30
0
10
40.127207968783694
20
106.43569153957034
30
0
10
40.271790109514129
20
123.99999999999999
30
0
0
SPLINE
5
236
100
AcDbEntity
8
0
100
AcDbSpline
70
12
71
2
41
1
41
1.004102528328374
41
1
72
6
73
3
74
0
42
0.000000001
43
0.0000000001
44
0.0000000001
40
0
40
0
40
0
40
4.6000028229386167
40
4.6000028229386167
40
4.6000028229386167
10
40
20
30
30
0
10
40
20
55.255767255627823
30
0
10
40.044637927299966
20
75.999999999999972
30
0
0
SPLINE
5
237
100
AcDbEntity
8
0
100
AcDbSpline
70
12
71
2
41
1
41
1.8582317270431241
41
2.141768272956869
41
1
72
7
73
4
74
0
42
0.000000001
43
0.0000000001
44
0.0000000001
40
0
40
0
40
0
40
8.635909975783667
40
20.124890990774809
40
20.124890990774809
40
20.124890990774809
10
30
20
30
30
0
10
30
20
163.80568120171407
30
0
10
32.003558783365193
20
224.51670756832777
30
0
10
40
20
230
30
0
0
LINE
5
238
100
AcDbEntity
8
0
100
AcDbLine
10
208
20
226.5
30
0
11
214
21
226.5
31
0
0
LINE
5
239
100
AcDbEntity
8
0
100
AcDbLine
10
196
20
226.5
30
0
11
202
21
226.5
31
0
0
LINE
5
240
100
AcDbEntity
8
0
100
AcDbLine
10
190
20
226.5
30
0
11
190
21
230
31
0
0
LINE
5
241
100
AcDbEntity
8
0
100
AcDbLine
10
220
20
220
30
0
11
153.58818788022353
21
220
31
0
0
LINE
5
242
100
AcDbEntity
8
0
100
AcDbLine
10
151.02858469182956
20
182
30
0
11
151.18979082790275
21
182
31
0
0
LINE
5
243
100
AcDbEntity
8
0
100
AcDbLine
10
199.02858469182956
20
178.49999999999997
30
0
11
205.02858469182954
21
178.49999999999997
31
0
0
LINE
5
244
100
AcDbEntity
8
0
100
AcDbLine
10
181.02858469182956
20
178.49999999999997
30
0
11
181.02858469182956
21
182
31
0
0
LINE
5
245
100
AcDbEntity
8
0
100
AcDbLine
10
187.02858469182956
20
178.49999999999997
30
0
11
193.02858469182954
21
178.49999999999997
31
0
0
LINE
5
246
100
AcDbEntity
8
0
100
AcDbLine
10
211.00000314414501
20
172
30
0
11
150.80596668405892
21
172
31
0
0
LINE
5
247
100
AcDbEntity
8
0
100
AcDbLine
10
210.31649670247916
20
123.99999999999999
30
0
11
150.24209385733943
21
123.99999999999999
31
0
0
LINE
5
248
100
AcDbEntity
8
0
100
AcDbLine
10
186.31649670247913
20
130.49999999999997
30
0
11
192.31649670247916
21
130.49999999999997
31
0
0
LINE
5
249
100
AcDbEntity
8
0
100
AcDbLine
10
180.31649670247916
20
130.49999999999997
30
0
11
180.31649670247916
21
134
31
0
0
LINE
5
250
100
AcDbEntity
8
0
100
AcDbLine
10
198.31649670247913
20
130.49999999999997
30
0
11
204.31649670247913
21
130.49999999999997
31
0
0
LINE
5
251
100
AcDbEntity
8
0
100
AcDbLine
10
198.06944617248973
20
82.499999999999972
30
0
11
204.06944617248971
21
82.499999999999972
31
0
0
LINE
5
252
100
AcDbEntity
8
0
100
AcDbLine
10
180.06944617248973
20
82.499999999999972
30
0
11
180.06944617248973
21
85.999999999999972
31
0
0
LINE
5
253
100
AcDbEntity
8
0
100
AcDbLine
10
186.06944617248971
20
82.499999999999972
30
0
11
192.06944617248973
21
82.499999999999972
31
0
0
LINE
5
254
100
AcDbEntity
8
0
100
AcDbLine
10
210.06944617248973
20
75.999999999999972
30
0
11
150.04463792729996
21
75.999999999999972
31
0
0
LINE
5
255
100
AcDbEntity
8
0
100
AcDbLine
10
210.06944617248973
20
82.499999999999972
30
0
11
210.06944617248973
21
75.999999999999972
31
0
0
LINE
5
256
100
AcDbEntity
8
0
100
AcDbLine
10
198
20
26.499999999999986
30
0
11
204
21
26.499999999999986
31
0
0
LINE
5
257
100
AcDbEntity
8
0
100
AcDbLine
10
180
20
26.499999999999986
30
0
11
180
21
30
31
0
0
LINE
5
258
100
AcDbEntity
8
0
100
AcDbLine
10
186
20
26.499999999999986
30
0
11
192
21
26.499999999999986
31
0
0
LINE
5
259
100
AcDbEntity
8
0
100
AcDbLine
10
210
20
20
30
0
11
110
21
20
31
0
0
LINE
5
260
100
AcDbEntity
8
0
100
AcDbLine
10
210
20
26.499999999999986
30
0
11
210
21
20
31
0
0
LINE
5
261
100
AcDbEntity
8
0
100
AcDbLine
10
110
20
20
30
0
11
110
21
30
31
0
0
LINE
5
262
100
AcDbEntity
8
0
100
AcDbLine
10
110
20
30
30
0
11
140
21
30
31
0
0
LINE
5
263
100
AcDbEntity
8
0
100
AcDbLine
10
150.31649670247913
20
134
30
0
11
150.36353632079056
21
134
31
0
0
SPLINE
5
264
100
AcDbEntity
8
0
100
AcDbSpline
70
12
71
2
41
1
41
1.8582317270431239
41
2.141768272956869
41
1
72
7
73
4
74
0
42
0.000000001
43
0.0000000001
44
0.0000000001
40
0
40
0
40
0
40
8.6359099757836653
40
20.124890990774809
40
20.124890990774809
40
20.124890990774809
10
140
20
30
30
0
10
140
20
163.80568120171407
30
0
10
142.00355878336518
20
224.51670756832777
30
0
10
150
20
230
30
0
0
LINE
5
265
100
AcDbEntity
8
0
100
AcDbLine
10
196
20
226.5
30
0
11
190
21
226.5
31
0
0
LINE
5
266
100
AcDbEntity
8
0
100
AcDbLine
10
190
20
226.5
30
0
11
220
21
226.5
31
0
0
LINE
5
267
100
AcDbEntity
8
0
100
AcDbLine
10
220
20
220
30
0
11
220
21
226.5
31
0
0
LINE
5
268
100
AcDbEntity
8
0
100
AcDbLine
10
220.00000327825546
20
231.00000344216824
30
0
11
220.00000327825546
21
236.5
31
0
0
LINE
5
269
100
AcDbEntity
8
0
100
AcDbLine
10
220.00000327825546
20
236.5
30
0
11
150.00000223517418
21
236.5
31
0
0
LINE
5
270
100
AcDbEntity
8
0
100
AcDbLine
10
150.00000223517418
20
236.5
30
0
11
150
21
230
31
0
0
LINE
5
271
100
AcDbEntity
8
0
100
AcDbLine
10
211.02858469182956
20
183.0000027269125
30
0
11
211.02858469182956
21
188.49999999999997
31
0
0
LINE
5
272
100
AcDbEntity
8
0
100
AcDbLine
10
211.02858469182956
20
188.49999999999997
30
0
11
151.38407133387534
21
188.49999999826113
31
0
0
LINE
5
273
100
AcDbEntity
8
0
100
AcDbLine
10
181.02858469182956
20
178.49999999999997
30
0
11
211.00000314414501
21
178.49999999999997
31
0
0
LINE
5
274
100
AcDbEntity
8
0
100
AcDbLine
10
211.00000314414501
20
172
30
0
11
211.00000314414501
21
178.49999999999997
31
0
0
SPLINE
5
275
100
AcDbEntity
8
0
100
AcDbSpline
70
12
71
2
41
1
41
0.99288486581808988
41
1
72
6
73
3
74
0
42
0.000000001
43
0.0000000001
44
0.0000000001
40
0
40
0
40
0
40
3.1594307077233035
40
3.1594307077233035
40
3.1594307077233035
10
151.38407133387534
20
188.49999999826113
30
0
10
152.24057379299478
20
214.90026386750031
30
0
10
153.58818788022353
20
220
30
0
0
LINE
5
276
100
AcDbEntity
8
0
100
AcDbLine
10
220.00000327825546
20
231.00000344216824
30
0
11
220.00000327825546
21
236.5
31
0
0
LINE
5
277
100
AcDbEntity
8
0
100
AcDbLine
10
220.00000327825546
20
236.5
30
0
11
150.00000223517418
21
236.5
31
0
0
LINE
5
278
100
AcDbEntity
8
0
100
AcDbLine
10
150.00000223517418
20
236.5
30
0
11
150
21
230
31
0
0
LINE
5
279
100
AcDbEntity
8
0
100
AcDbLine
10
150.31649670247916
20
134
30
0
11
150.47770283855237
21
134
31
0
0
LINE
5
280
100
AcDbEntity
8
0
100
AcDbLine
10
210.31649670247916
20
134.99999999999997
30
0
11
210.31649670247916
21
140.49989336151629
31
0
0
LINE
5
281
100
AcDbEntity
8
0
100
AcDbLine
10
210.31649670247916
20
140.49989336151629
30
0
11
150.67198334452493
21
140.49999999826113
31
0
0
LINE
5
282
100
AcDbEntity
8
0
100
AcDbLine
10
150.67198334452493
20
140.49999999826113
30
0
11
150.43419616322149
21
140.50000041859028
31
0
0
SPLINE
5
283
100
AcDbEntity
8
0
100
AcDbSpline
70
12
71
2
41
1
41
0.99866364051270717
41
1
72
6
73
3
74
0
42
0.000000001
43
0.0000000001
44
0.0000000001
40
0
40
0
40
0
40
3.1504223216297627
40
3.1504223216297627
40
3.1504223216297627
10
150.43419616322149
20
140.50000041859028
30
0
10
150.63842268715231
20
158.10442774771249
30
0
10
150.94371539268894
20
172
30
0
0
LINE
5
284
100
AcDbEntity
8
0
100
AcDbLine
10
180.31649670247916
20
130.49999999999997
30
0
11
210.31649670247916
21
130.49999999999997
31
0
0
LINE
5
285
100
AcDbEntity
8
0
100
AcDbLine
10
210.31649670247916
20
130.49999999999997
30
0
11
210.31649670247916
21
123.99999999999999
31
0
0
LINE
5
286
100
AcDbEntity
8
0
100
AcDbLine
10
180.06944617248973
20
82.499999999999972
30
0
11
210.06944617248973
21
82.499999999999972
31
0
0
LINE
5
287
100
AcDbEntity
8
0
100
AcDbLine
10
180.06944617248973
20
82.499999999999972
30
0
11
180.06944617248973
21
85.999999999999972
31
0
0
LINE
5
288
100
AcDbEntity
8
0
100
AcDbLine
10
198.06944617248971
20
82.499999999999972
30
0
11
204.06944617248971
21
82.499999999999972
31
0
0
LINE
5
289
100
AcDbEntity
8
0
100
AcDbLine
10
150.42493281453551
20
92.499999998261131
30
0
11
150.18714563323203
21
92.500000418590261
31
0
0
LINE
5
290
100
AcDbEntity
8
0
100
AcDbLine
10
210.06944617248973
20
92.499893361516271
30
0
11
150.42493281453551
21
92.499999998261131
31
0
0
LINE
5
291
100
AcDbEntity
8
0
100
AcDbLine
10
210.06944617248973
20
86.999999999999972
30
0
11
210.06944617248973
21
92.499893361516271
31
0
0
LINE
5
292
100
AcDbEntity
8
0
100
AcDbLine
10
186.06944617248971
20
82.499999999999972
30
0
11
192.06944617248973
21
82.499999999999972
31
0
0
LINE
5
293
100
AcDbEntity
8
0
100
AcDbLine
10
150.18714563323203
20
92.500000418590261
30
0
11
150.09027884491394
21
92.500000589745568
31
0
0
SPLINE
5
294
100
AcDbEntity
8
0
100
AcDbSpline
70
12
71
2
41
1
41
0.99921306564403467
41
1
72
6
73
3
74
0
42
0.000000001
43
0.0000000001
44
0.0000000001
40
0
40
0
40
0
40
3.1500543380932022
40
3.1500543380932022
40
3.1500543380932022
10
150.09027884491394
20
92.500000589745568
30
0
10
150.15050154375629
20
109.26547074949021
30
0
10
150.27179010951411
20
123.99999999999999
30
0
0
LINE
5
295
100
AcDbEntity
8
0
100
AcDbLine
10
210.00000312924385
20
31
30
0
11
210
21
36.499893361516285
31
0
0
LINE
5
296
100
AcDbEntity
8
0
100
AcDbLine
10
210
20
36.499893361516285
30
0
11
150.35548664204578
21
36.499999998261146
31
0
0
LINE
5
297
100
AcDbEntity
8
0
100
AcDbLine
10
150.1176994607423
20
36.50000041859029
30
0
11
150.02083267242423
21
36.500000589745589
31
0
0
LINE
5
298
100
AcDbEntity
8
0
100
AcDbLine
10
185.99999999999997
20
26.499999999999986
30
0
11
192
21
26.499999999999986
31
0
0
LINE
5
299
100
AcDbEntity
8
0
100
AcDbLine
10
150.35548664204578
20
36.499999998261146
30
0
11
150.1176994607423
21
36.50000041859029
31
0
0
LINE
5
300
100
AcDbEntity
8
0
100
AcDbLine
10
198
20
26.499999999999986
30
0
11
204
21
26.499999999999986
31
0
0
LINE
5
301
100
AcDbEntity
8
0
100
AcDbLine
10
180
20
26.499999999999986
30
0
11
180
21
30
31
0
0
LINE
5
302
100
AcDbEntity
8
0
100
AcDbLine
10
185.99999999999997
20
26.499999999999986
30
0
11
192
21
26.499999999999986
31
0
0
LINE
5
303
100
AcDbEntity
8
0
100
AcDbLine
10
180
20
26.499999999999986
30
0
11
210
21
26.499999999999986
31
0
0
LINE
5
304
100
AcDbEntity
8
0
100
AcDbLine
10
180
20
26.499999999999986
30
0
11
180
21
30
31
0
0
LINE
5
305
100
AcDbEntity
8
0
100
AcDbLine
10
197.99999999999997
20
26.499999999999986
30
0
11
204
21
26.499999999999986
31
0
0
LINE
5
306
100
AcDbEntity
8
0
100
AcDbLine
10
150.02083267242423
20
36.500000589745589
30
0
11
150.00075188752845
21
36.500000623377993
31
0
0
SPLINE
5
307
100
AcDbEntity
8
0
100
AcDbSpline
70
12
71
2
41
1
41
1.0031049778352572
41
1
72
6
73
3
74
0
42
0.000000001
43
0.0000000001
44
0.0000000001
40
0
40
0
40
0
40
3.9500028250710564
40
3.9500028250710564
40
3.9500028250710564
10
150.00075188752845
20
36.500000623377993
30
0
10
150.00577539995746
20
57.939723437208713
30
0
10
150.04463792729996
20
75.999999999999972
30
0
0
LINE
5
308
100
AcDbEntity
8
0
100
AcDbLine
10
190
20
230
30
0
11
190
21
231.00000344216824
31
0
0
LINE
5
309
100
AcDbEntity
8
0
100
AcDbLine
10
190
20
231.00000344216824
30
0
11
220.00000327825546
21
231.00000344216824
31
0
0
LINE
5
310
100
AcDbEntity
8
0
100
AcDbLine
10
181.0285814135741
20
182
30
0
11
181.0285814135741
21
183.0000027269125
31
0
0
LINE
5
311
100
AcDbEntity
8
0
100
AcDbLine
10
181.0285814135741
20
183.0000027269125
30
0
11
211.02858469182956
21
183.0000027269125
31
0
0
LINE
5
312
100
AcDbEntity
8
0
100
AcDbLine
10
180.31649342422369
20
134
30
0
11
180.31649342422369
21
134.99999999999997
31
0
0
LINE
5
313
100
AcDbEntity
8
0
100
AcDbLine
10
180.31649342422369
20
134.99999999999997
30
0
11
210.31649670247916
21
134.99999999999997
31
0
0
LINE
5
314
100
AcDbEntity
8
0
100
AcDbLine
10
180.06944289423427
20
85.999999999999972
30
0
11
180.06944289423427
21
86.999999999999972
31
0
0
LINE
5
315
100
AcDbEntity
8
0
100
AcDbLine
10
180.06944289423427
20
86.999999999999972
30
0
11
210.06944617248973
21
86.999999999999972
31
0
0
LINE
5
316
100
AcDbEntity
8
0
100
AcDbLine
10
179.99999672174454
20
30
30
0
11
179.99999672174454
21
31
31
0
0
LINE
5
317
100
AcDbEntity
8
0
100
AcDbLine
10
179.99999672174454
20
31
30
0
11
210.00000312924385
21
31
31
0
0
LINE
5
318
100
AcDbEntity
8
0
100
AcDbLine
10
-67.93055382751028
20
82.499999999999972
30
0
11
-67.93055382751028
21
85.999999999999972
31
0
0
LINE
5
319
100
AcDbEntity
8
0
100
AcDbLine
10
-55.930553827510288
20
85.999999999999972
30
0
11
-49.930553827510273
21
85.999999999999972
31
0
0
LINE
5
320
100
AcDbEntity
8
0
100
AcDbLine
10
-55.930553827510288
20
85.999999999999972
30
0
11
-49.930553827510273
21
85.999999999999972
31
0
0
LINE
5
321
100
AcDbEntity
8
0
100
AcDbLine
10
-60.971415308170442
20
182
30
0
11
-60.971415308170442
21
178.49999999999997
31
0
0
LINE
5
322
100
AcDbEntity
8
0
100
AcDbLine
10
-66.971415308170464
20
182
30
0
11
-60.971415308170442
21
182
31
0
0
LINE
5
323
100
AcDbEntity
8
0
100
AcDbLine
10
-67.93055382751028
20
85.999999999999972
30
0
11
-61.930553827510266
21
85.999999999999972
31
0
0
LINE
5
324
100
AcDbEntity
8
0
100
AcDbLine
10
-55.683503297520858
20
134
30
0
11
-49.683503297520858
21
134
31
0
0
LINE
5
325
100
AcDbEntity
8
0
100
AcDbLine
10
-67.683503297520843
20
134
30
0
11
-61.683503297520858
21
134
31
0
0
LINE
5
326
100
AcDbEntity
8
0
100
AcDbLine
10
-61.999999999999993
20
26.499999999999986
30
0
11
-56
21
26.499999999999986
31
0
0
LINE
5
327
100
AcDbEntity
8
0
100
AcDbLine
10
-68
20
26.499999999999986
30
0
11
-68
21
30
31
0
0
LINE
5
328
100
AcDbEntity
8
0
100
AcDbLine
10
-56
20
30
30
0
11
-50
21
30
31
0
0
LINE
5
329
100
AcDbEntity
8
0
100
AcDbLine
10
-68
20
30
30
0
11
-61.999999999999993
21
30
31
0
0
LINE
5
330
100
AcDbEntity
8
0
100
AcDbLine
10
-56
20
30
30
0
11
-50
21
30
31
0
0
LINE
5
331
100
AcDbEntity
8
0
100
AcDbLine
10
-49.930553827510273
20
85.999999999999972
30
0
11
-49.930553827510273
21
75.999999999999972
31
0
0
LINE
5
332
100
AcDbEntity
8
0
100
AcDbLine
10
-55.930553827510288
20
82.499999999999972
30
0
11
-55.930553827510288
21
85.999999999999972
31
0
0
LINE
5
333
100
AcDbEntity
8
0
100
AcDbLine
10
-61.930553827510266
20
85.999999999999972
30
0
11
-61.930553827510266
21
82.499999999999972
31
0
0
LINE
5
334
100
AcDbEntity
8
0
100
AcDbLine
10
-55.683503297520858
20
130.49999999999997
30
0
11
-55.683503297520858
21
134
31
0
0
LINE
5
335
100
AcDbEntity
8
0
100
AcDbLine
10
-49.683503297520858
20
134
30
0
11
-49.683503297520858
21
123.99999999999999
31
0
0
LINE
5
336
100
AcDbEntity
8
0
100
AcDbLine
10
-48.97141530817045
20
182
30
0
11
-48.97141530817045
21
172
31
0
0
LINE
5
337
100
AcDbEntity
8
0
100
AcDbLine
10
-54.97141530817045
20
178.49999999999997
30
0
11
-54.97141530817045
21
182
31
0
0
LINE
5
338
100
AcDbEntity
8
0
100
AcDbLine
10
-72.97141530817045
20
178.49999999999997
30
0
11
-66.971415308170464
21
178.49999999999997
31
0
0
LINE
5
339
100
AcDbEntity
8
0
100
AcDbLine
10
-55.683503297520858
20
134
30
0
11
-49.683503297520858
21
134
31
0
0
LINE
5
340
100
AcDbEntity
8
0
100
AcDbLine
10
-67.683503297520843
20
130.49999999999997
30
0
11
-67.683503297520843
21
134
31
0
0
LINE
5
341
100
AcDbEntity
8
0
100
AcDbLine
10
-61.683503297520858
20
130.49999999999997
30
0
11
-55.683503297520858
21
130.49999999999997
31
0
0
LINE
5
342
100
AcDbEntity
8
0
100
AcDbLine
10
-67.683503297520843
20
134
30
0
11
-61.683503297520858
21
134
31
0
0
LINE
5
343
100
AcDbEntity
8
0
100
AcDbLine
10
-61.683503297520858
20
134
30
0
11
-61.683503297520858
21
130.49999999999997
31
0
0
LINE
5
344
100
AcDbEntity
8
0
100
AcDbLine
10
-50
20
30
30
0
11
-50
21
20
31
0
0
LINE
5
345
100
AcDbEntity
8
0
100
AcDbLine
10
-56
20
26.499999999999986
30
0
11
-56
21
30
31
0
0
LINE
5
346
100
AcDbEntity
8
0
100
AcDbLine
10
-61.999999999999993
20
30
30
0
11
-61.999999999999993
21
26.499999999999986
31
0
0
LINE
5
347
100
AcDbEntity
8
0
100
AcDbLine
10
-68
20
30
30
0
11
-61.999999999999993
21
30
31
0
0
LINE
5
348
100
AcDbEntity
8
0
100
AcDbLine
10
-60.971415308170442
20
178.49999999999997
30
0
11
-54.97141530817045
21
178.49999999999997
31
0
0
LINE
5
349
100
AcDbEntity
8
0
100
AcDbLine
10
-66.971415308170464
20
178.49999999999997
30
0
11
-66.971415308170464
21
182
31
0
0
LINE
5
350
100
AcDbEntity
8
0
100
AcDbLine
10
-54.97141530817045
20
182
30
0
11
-48.97141530817045
21
182
31
0
0
LINE
5
351
100
AcDbEntity
8
0
100
AcDbLine
10
-54.97141530817045
20
182
30
0
11
-48.97141530817045
21
182
31
0
0
LINE
5
352
100
AcDbEntity
8
0
100
AcDbLine
10
-66.971415308170464
20
182
30
0
11
-60.971415308170442
21
182
31
0
0
SPLINE
5
353
100
AcDbEntity
8
0
100
AcDbSpline
70
12
71
2
41
1
41
0.99888233308809926
41
1
72
6
73
3
74
0
42
0.000000001
43
0.0000000001
44
0.0000000001
40
0
40
0
40
0
40
3.8000573027392619
40
3.8000573027392619
40
3.8000573027392619
10
-109.93055382751027
20
85.999999999999972
30
0
10
-109.87279203121631
20
106.43569153957034
30
0
10
-109.72820989048587
20
123.99999999999999
30
0
0
LINE
5
354
100
AcDbEntity
8
0
100
AcDbLine
10
-109.68350329752086
20
130.49999999999997
30
0
11
-103.68350329752087
21
130.49999999999997
31
0
0
LINE
5
355
100
AcDbEntity
8
0
100
AcDbLine
10
-109.68350329752086
20
134
30
0
11
-109.68350329752086
21
130.49999999999997
31
0
0
LINE
5
356
100
AcDbEntity
8
0
100
AcDbLine
10
-97.683503297520843
20
130.49999999999997
30
0
11
-91.683503297520872
21
130.49999999999997
31
0
0
LINE
5
357
100
AcDbEntity
8
0
100
AcDbLine
10
-85.683503297520858
20
134
30
0
11
-85.683503297520858
21
130.49999999999997
31
0
0
LINE
5
358
100
AcDbEntity
8
0
100
AcDbLine
10
-85.683503297520858
20
130.49999999999997
30
0
11
-79.683503297520858
21
130.49999999999997
31
0
0
LINE
5
359
100
AcDbEntity
8
0
100
AcDbLine
10
-97.683503297520843
20
134
30
0
11
-97.683503297520843
21
130.49999999999997
31
0
0
LINE
5
360
100
AcDbEntity
8
0
100
AcDbLine
10
-91.683503297520872
20
130.49999999999997
30
0
11
-91.683503297520872
21
134
31
0
0
LINE
5
361
100
AcDbEntity
8
0
100
AcDbLine
10
-79.683503297520858
20
130.49999999999997
30
0
11
-79.683503297520858
21
134
31
0
0
LINE
5
362
100
AcDbEntity
8
0
100
AcDbLine
10
-103.68350329752087
20
130.49999999999997
30
0
11
-103.68350329752087
21
134
31
0
0
LINE
5
363
100
AcDbEntity
8
0
100
AcDbLine
10
-73.683503297520858
20
134
30
0
11
-73.683503297520858
21
130.49999999999997
31
0
0
LINE
5
364
100
AcDbEntity
8
0
100
AcDbLine
10
-73.683503297520858
20
130.49999999999997
30
0
11
-67.683503297520843
21
130.49999999999997
31
0
0
LINE
5
365
100
AcDbEntity
8
0
100
AcDbLine
10
-49.683503297520858
20
123.99999999999999
30
0
11
-109.75790614266057
21
123.99999999999999
31
0
0
SPLINE
5
366
100
AcDbEntity
8
0
100
AcDbSpline
70
12
71
2
41
1
41
0.99813498833606085
41
1
72
6
73
3
74
0
42
0.000000001
43
0.0000000001
44
0.0000000001
40
0
40
0
40
0
40
3.8004588587542933
40
3.8004588587542933
40
3.8004588587542933
10
-109.63646367920944
20
134
30
0
10
-109.41708588628555
20
155.57792325271831
30
0
10
-109.05628460731106
20
172
30
0
0
LINE
5
367
100
AcDbEntity
8
0
100
AcDbLine
10
-109.68350329752086
20
134
30
0
11
-109.63646367920944
21
134
31
0
0
LINE
5
368
100
AcDbEntity
8
0
100
AcDbLine
10
-79.683503297520858
20
134
30
0
11
-73.683503297520858
21
134
31
0
0
LINE
5
369
100
AcDbEntity
8
0
100
AcDbLine
10
-91.683503297520872
20
134
30
0
11
-85.683503297520858
21
134
31
0
0
LINE
5
370
100
AcDbEntity
8
0
100
AcDbLine
10
-79.683503297520858
20
134
30
0
11
-73.683503297520858
21
134
31
0
0
LINE
5
371
100
AcDbEntity
8
0
100
AcDbLine
10
-103.68350329752087
20
134
30
0
11
-97.683503297520843
21
134
31
0
0
LINE
5
372
100
AcDbEntity
8
0
100
AcDbLine
10
-48.97141530817045
20
172
30
0
11
-109.1940333159411
21
172
31
0
0
LINE
5
373
100
AcDbEntity
8
0
100
AcDbLine
10
-108.97141530817045
20
182
30
0
11
-108.97141530817045
21
178.49999999999997
31
0
0
LINE
5
374
100
AcDbEntity
8
0
100
AcDbLine
10
-72.97141530817045
20
182
30
0
11
-72.97141530817045
21
178.49999999999997
31
0
0
LINE
5
375
100
AcDbEntity
8
0
100
AcDbLine
10
-102.97141530817045
20
178.49999999999997
30
0
11
-102.97141530817045
21
182
31
0
0
LINE
5
376
100
AcDbEntity
8
0
100
AcDbLine
10
-102.97141530817045
20
182
30
0
11
-96.971415308170464
21
182
31
0
0
LINE
5
377
100
AcDbEntity
8
0
100
AcDbLine
10
-78.97141530817045
20
178.49999999999997
30
0
11
-78.97141530817045
21
182
31
0
0
LINE
5
378
100
AcDbEntity
8
0
100
AcDbLine
10
-108.97141530817045
20
178.49999999999997
30
0
11
-102.97141530817045
21
178.49999999999997
31
0
0
LINE
5
379
100
AcDbEntity
8
0
100
AcDbLine
10
-90.971415308170435
20
178.49999999999997
30
0
11
-90.971415308170435
21
182
31
0
0
LINE
5
380
100
AcDbEntity
8
0
100
AcDbLine
10
-78.97141530817045
20
182
30
0
11
-72.97141530817045
21
182
31
0
0
LINE
5
381
100
AcDbEntity
8
0
100
AcDbLine
10
-90.971415308170435
20
182
30
0
11
-84.97141530817045
21
182
31
0
0
LINE
5
382
100
AcDbEntity
8
0
100
AcDbLine
10
-96.971415308170464
20
182
30
0
11
-96.971415308170464
21
178.49999999999997
31
0
0
LINE
5
383
100
AcDbEntity
8
0
100
AcDbLine
10
-84.97141530817045
20
178.49999999999997
30
0
11
-78.97141530817045
21
178.49999999999997
31
0
0
LINE
5
384
100
AcDbEntity
8
0
100
AcDbLine
10
-84.97141530817045
20
182
30
0
11
-84.97141530817045
21
178.49999999999997
31
0
0
LINE
5
385
100
AcDbEntity
8
0
100
AcDbLine
10
-96.971415308170464
20
178.49999999999997
30
0
11
-90.971415308170435
21
178.49999999999997
31
0
0
LINE
5
386
100
AcDbEntity
8
0
100
AcDbLine
10
-78.97141530817045
20
182
30
0
11
-72.97141530817045
21
182
31
0
0
LINE
5
387
100
AcDbEntity
8
0
100
AcDbLine
10
-90.971415308170435
20
182
30
0
11
-84.97141530817045
21
182
31
0
0
LINE
5
388
100
AcDbEntity
8
0
100
AcDbLine
10
-108.97141530817045
20
182
30
0
11
-108.81020917209725
21
182
31
0
0
LINE
5
389
100
AcDbEntity
8
0
100
AcDbLine
10
-102.97141530817045
20
182
30
0
11
-96.971415308170464
21
182
31
0
0
LINE
5
390
100
AcDbEntity
8
0
100
AcDbLine
10
-109.93055382751027
20
82.499999999999972
30
0
11
-103.93055382751029
21
82.499999999999972
31
0
0
LINE
5
391
100
AcDbEntity
8
0
100
AcDbLine
10
-109.93055382751027
20
85.999999999999972
30
0
11
-109.93055382751027
21
82.499999999999972
31
0
0
LINE
5
392
100
AcDbEntity
8
0
100
AcDbLine
10
-49.930553827510273
20
75.999999999999972
30
0
11
-109.95536207270004
21
75.999999999999972
31
0
0
LINE
5
393
100
AcDbEntity
8
0
100
AcDbLine
10
-73.93055382751028
20
82.499999999999972
30
0
11
-67.93055382751028
21
82.499999999999972
31
0
0
LINE
5
394
100
AcDbEntity
8
0
100
AcDbLine
10
-73.93055382751028
20
85.999999999999972
30
0
11
-73.93055382751028
21
82.499999999999972
31
0
0
LINE
5
395
100
AcDbEntity
8
0
100
AcDbLine
10
-103.93055382751029
20
82.499999999999972
30
0
11
-103.93055382751029
21
85.999999999999972
31
0
0
LINE
5
396
100
AcDbEntity
8
0
100
AcDbLine
10
-103.93055382751029
20
85.999999999999972
30
0
11
-97.93055382751028
21
85.999999999999972
31
0
0
LINE
5
397
100
AcDbEntity
8
0
100
AcDbLine
10
-79.93055382751028
20
82.499999999999972
30
0
11
-79.93055382751028
21
85.999999999999972
31
0
0
LINE
5
398
100
AcDbEntity
8
0
100
AcDbLine
10
-91.93055382751028
20
82.499999999999972
30
0
11
-91.93055382751028
21
85.999999999999972
31
0
0
LINE
5
399
100
AcDbEntity
8
0
100
AcDbLine
10
-79.93055382751028
20
85.999999999999972
30
0
11
-73.93055382751028
21
85.999999999999972
31
0
0
LINE
5
400
100
AcDbEntity
8
0
100
AcDbLine
10
-91.93055382751028
20
85.999999999999972
30
0
11
-85.930553827510295
21
85.999999999999972
31
0
0
LINE
5
401
100
AcDbEntity
8
0
100
AcDbLine
10
-97.93055382751028
20
85.999999999999972
30
0
11
-97.93055382751028
21
82.499999999999972
31
0
0
LINE
5
402
100
AcDbEntity
8
0
100
AcDbLine
10
-85.930553827510295
20
82.499999999999972
30
0
11
-79.93055382751028
21
82.499999999999972
31
0
0
LINE
5
403
100
AcDbEntity
8
0
100
AcDbLine
10
-85.930553827510295
20
85.999999999999972
30
0
11
-85.930553827510295
21
82.499999999999972
31
0
0
LINE
5
404
100
AcDbEntity
8
0
100
AcDbLine
10
-97.93055382751028
20
82.499999999999972
30
0
11
-91.93055382751028
21
82.499999999999972
31
0
0
LINE
5
405
100
AcDbEntity
8
0
100
AcDbLine
10
-79.93055382751028
20
85.999999999999972
30
0
11
-73.93055382751028
21
85.999999999999972
31
0
0
LINE
5
406
100
AcDbEntity
8
0
100
AcDbLine
10
-103.93055382751029
20
85.999999999999972
30
0
11
-97.93055382751028
21
85.999999999999972
31
0
0
LINE
5
407
100
AcDbEntity
8
0
100
AcDbLine
10
-91.93055382751028
20
85.999999999999972
30
0
11
-85.930553827510295
21
85.999999999999972
31
0
0
LINE
5
408
100
AcDbEntity
8
0
100
AcDbLine
10
-110
20
26.499999999999986
30
0
11
-104
21
26.499999999999986
31
0
0
LINE
5
409
100
AcDbEntity
8
0
100
AcDbLine
10
-110
20
30
30
0
11
-110
21
26.499999999999986
31
0
0
LINE
5
410
100
AcDbEntity
8
0
100
AcDbLine
10
-50
20
20
30
0
11
-150
21
20
31
0
0
LINE
5
411
100
AcDbEntity
8
0
100
AcDbLine
10
-74
20
26.499999999999986
30
0
11
-68
21
26.499999999999986
31
0
0
LINE
5
412
100
AcDbEntity
8
0
100
AcDbLine
10
-74
20
30
30
0
11
-74
21
26.499999999999986
31
0
0
LINE
5
413
100
AcDbEntity
8
0
100
AcDbLine
10
-104
20
26.499999999999986
30
0
11
-104
21
30
31
0
0
LINE
5
414
100
AcDbEntity
8
0
100
AcDbLine
10
-104
20
30
30
0
11
-98
21
30
31
0
0
LINE
5
415
100
AcDbEntity
8
0
100
AcDbLine
10
-80
20
26.499999999999986
30
0
11
-80
21
30
31
0
0
LINE
5
416
100
AcDbEntity
8
0
100
AcDbLine
10
-92
20
26.499999999999986
30
0
11
-92
21
30
31
0
0
LINE
5
417
100
AcDbEntity
8
0
100
AcDbLine
10
-80
20
30
30
0
11
-74
21
30
31
0
0
LINE
5
418
100
AcDbEntity
8
0
100
AcDbLine
10
-92
20
30
30
0
11
-86
21
30
31
0
0
LINE
5
419
100
AcDbEntity
8
0
100
AcDbLine
10
-98
20
30
30
0
11
-98
21
26.499999999999986
31
0
0
LINE
5
420
100
AcDbEntity
8
0
100
AcDbLine
10
-86
20
26.499999999999986
30
0
11
-80
21
26.499999999999986
31
0
0
LINE
5
421
100
AcDbEntity
8
0
100
AcDbLine
10
-86
20
30
30
0
11
-86
21
26.499999999999986
31
0
0
LINE
5
422
100
AcDbEntity
8
0
100
AcDbLine
10
-98
20
26.499999999999986
30
0
11
-92
21
26.499999999999986
31
0
0
LINE
5
423
100
AcDbEntity
8
0
100
AcDbLine
10
-104
20
30
30
0
11
-98
21
30
31
0
0
LINE
5
424
100
AcDbEntity
8
0
100
AcDbLine
10
-92
20
30
30
0
11
-86
21
30
31
0
0
LINE
5
425
100
AcDbEntity
8
0
100
AcDbLine
10
-80
20
30
30
0
11
-74
21
30
31
0
0
SPLINE
5
426
100
AcDbEntity
8
0
100
AcDbSpline
70
12
71
2
41
1
41
1.004102528328374
41
1
72
6
73
3
74
0
42
0.000000001
43
0.0000000001
44
0.0000000001
40
0
40
0
40
0
40
4.6000028229386167
40
4.6000028229386167
40
4.6000028229386167
10
-110
20
30
30
0
10
-110
20
55.255767255627823
30
0
10
-109.95536207270004
20
75.999999999999972
30
0
0
SPLINE
5
427
100
AcDbEntity
8
0
100
AcDbSpline
70
12
71
2
41
1
41
1.8582317270431239
41
2.141768272956869
41
1
72
7
73
4
74
0
42
0.000000001
43
0.0000000001
44
0.0000000001
40
0
40
0
40
0
40
8.6359099757836653
40
20.124890990774809
40
20.124890990774809
40
20.124890990774809
10
-120
20
30
30
0
10
-119.99999999999999
20
163.80568120171407
30
0
10
-117.99644121663479
20
224.51670756832777
30
0
10
-110
20
230
30
0
0
LINE
5
428
100
AcDbEntity
8
0
100
AcDbLine
10
-150
20
30
30
0
11
-120
21
30
31
0
0
LINE
5
429
100
AcDbEntity
8
0
100
AcDbLine
10
-150
20
20
30
0
11
-150
21
30
31
0
0
LINE
5
430
100
AcDbEntity
8
0
100
AcDbLine
10
-82
20
230
30
0
11
-76
21
230
31
0
0
LINE
5
431
100
AcDbEntity
8
0
100
AcDbLine
10
-58.000000000000007
20
230
30
0
11
-51.999999999999993
21
230
31
0
0
LINE
5
432
100
AcDbEntity
8
0
100
AcDbLine
10
-70
20
230
30
0
11
-63.999999999999986
21
230
31
0
0
LINE
5
433
100
AcDbEntity
8
0
100
AcDbLine
10
-94
20
230
30
0
11
-88
21
230
31
0
0
LINE
5
434
100
AcDbEntity
8
0
100
AcDbLine
10
-46
20
226.5
30
0
11
-46
21
230
31
0
0
LINE
5
435
100
AcDbEntity
8
0
100
AcDbLine
10
-51.999999999999993
20
226.5
30
0
11
-46
21
226.5
31
0
0
LINE
5
436
100
AcDbEntity
8
0
100
AcDbLine
10
-51.999999999999993
20
230
30
0
11
-51.999999999999993
21
226.5
31
0
0
LINE
5
437
100
AcDbEntity
8
0
100
AcDbLine
10
-58.000000000000007
20
226.5
30
0
11
-58.000000000000007
21
230
31
0
0
LINE
5
438
100
AcDbEntity
8
0
100
AcDbLine
10
-63.999999999999986
20
226.5
30
0
11
-58.000000000000007
21
226.5
31
0
0
LINE
5
439
100
AcDbEntity
8
0
100
AcDbLine
10
-63.999999999999986
20
230
30
0
11
-63.999999999999986
21
226.5
31
0
0
LINE
5
440
100
AcDbEntity
8
0
100
AcDbLine
10
-70
20
226.5
30
0
11
-70
21
230
31
0
0
LINE
5
441
100
AcDbEntity
8
0
100
AcDbLine
10
-76
20
226.5
30
0
11
-70
21
226.5
31
0
0
LINE
5
442
100
AcDbEntity
8
0
100
AcDbLine
10
-76
20
230
30
0
11
-76
21
226.5
31
0
0
LINE
5
443
100
AcDbEntity
8
0
100
AcDbLine
10
-82
20
226.5
30
0
11
-82
21
230
31
0
0
LINE
5
444
100
AcDbEntity
8
0
100
AcDbLine
10
-88
20
226.5
30
0
11
-82
21
226.5
31
0
0
LINE
5
445
100
AcDbEntity
8
0
100
AcDbLine
10
-88
20
230
30
0
11
-88
21
226.5
31
0
0
LINE
5
446
100
AcDbEntity
8
0
100
AcDbLine
10
-94
20
226.5
30
0
11
-94
21
230
31
0
0
LINE
5
447
100
AcDbEntity
8
0
100
AcDbLine
10
-100
20
226.5
30
0
11
-94
21
226.5
31
0
0
LINE
5
448
100
AcDbEntity
8
0
100
AcDbLine
10
-100
20
230
30
0
11
-100
21
226.5
31
0
0
LINE
5
449
100
AcDbEntity
8
0
100
AcDbLine
10
-110
20
230
30
0
11
-100
21
230
31
0
0
SPLINE
5
450
100
AcDbEntity
8
0
100
AcDbSpline
70
12
71
2
41
1
41
0.99110581291917155
41
1
72
6
73
3
74
0
42
0.000000001
43
0.0000000001
44
0.0000000001
40
0
40
0
40
0
40
3.8095030116222408
40
3.8095030116222408
40
3.8095030116222408
10
-108.81020917209725
20
182
30
0
10
-107.92054396831929
20
214.29055068866998
30
0
10
-106.41181211977647
20
220
30
0
0
LINE
5
451
100
AcDbEntity
8
0
100
AcDbLine
10
-40
20
220
30
0
11
-106.41181211977647
21
220
31
0
0
LINE
5
452
100
AcDbEntity
8
0
100
AcDbLine
10
-67.93055382751028
20
85.999999999999972
30
0
11
-61.930553827510266
21
85.999999999999972
31
0
0
LINE
5
453
100
AcDbEntity
8
0
100
AcDbLine
10
-61.930553827510266
20
82.499999999999972
30
0
11
-55.930553827510288
21
82.499999999999972
31
0
0
LINE
5
454
100
AcDbEntity
8
0
100
AcDbLine
10
-46
20
230
30
0
11
-40
21
230
31
0
0
LINE
5
455
100
AcDbEntity
8
0
100
AcDbLine
10
-40
20
230
30
0
11
-40
21
220
31
0
0
ENDSEC
0
SECTION
2
OBJECTS
0
DICTIONARY
5
C
100
AcDbDictionary
3
ACAD_GROUP
350
D
3
ACAD_MLINESTYLE
350
17
0
DICTIONARY
5
D
100
AcDbDictionary
0
DICTIONARY
5
1A
330
C
100
AcDbDictionary
0
DICTIONARY
5
17
100
AcDbDictionary
0
ENDSEC
0
EOF
